  0
SECTION
  2
HEADER
  9
$ACADVER
  1
AC1009
  9
$INSBASE
 10
0.0
 20
0.0
 30
0.0
  9
$EXTMIN
 10
-17.699999999999982
 20
-36.986751345948107
 30
0.0
  9
$EXTMAX
 10
17.699999999999989
 20
50.146537204212621
 30
0.0
  9
$LIMMIN
 10
0.0
 20
0.0
  9
$LIMMAX
 10
594.5
 20
420.5
  9
$ORTHOMODE
 70
     0
  9
$REGENMODE
 70
     1
  9
$FILLMODE
 70
     1
  9
$QTEXTMODE
 70
     0
  9
$MIRRTEXT
 70
     1
  9
$DRAGMODE
 70
     2
  9
$LTSCALE
 40
0.5
  9
$OSMODE
 70
    37
  9
$ATTMODE
 70
     1
  9
$TEXTSIZE
 40
1.5
  9
$TRACEWID
 40
0.05
  9
$TEXTSTYLE
  7
STANDARD
  9
$CLAYER
  8
CAVITY-TOP
  9
$CELTYPE
  6
BYLAYER
  9
$CECOLOR
 62
   256
  9
$DIMSCALE
 40
0.5
  9
$DIMASZ
 40
3.0
  9
$DIMEXO
 40
1.0
  9
$DIMDLI
 40
10.0
  9
$DIMRND
 40
0.0
  9
$DIMDLE
 40
0.0
  9
$DIMEXE
 40
1.25
  9
$DIMTP
 40
0.05
  9
$DIMTM
 40
0.05
  9
$DIMTXT
 40
3.0
  9
$DIMCEN
 40
-3.0
  9
$DIMTSZ
 40
0.0
  9
$DIMTOL
 70
     0
  9
$DIMLIM
 70
     1
  9
$DIMTIH
 70
     0
  9
$DIMTOH
 70
     0
  9
$DIMSE1
 70
     0
  9
$DIMSE2
 70
     0
  9
$DIMTAD
 70
     1
  9
$DIMZIN
 70
     0
  9
$DIMBLK
  1

  9
$DIMASO
 70
     1
  9
$DIMSHO
 70
     1
  9
$DIMPOST
  1

  9
$DIMAPOST
  1

  9
$DIMALT
 70
     0
  9
$DIMALTD
 70
     2
  9
$DIMALTF
 40
0.0393701
  9
$DIMLFAC
 40
1.0
  9
$DIMTOFL
 70
     0
  9
$DIMTVP
 40
0.0
  9
$DIMTIX
 70
     0
  9
$DIMSOXD
 70
     0
  9
$DIMSAH
 70
     1
  9
$DIMBLK1
  1
DIMARROW
  9
$DIMBLK2
  1
DIMARROW
  9
$DIMSTYLE
  2
GEN-ISO
  9
$DIMCLRD
 70
   256
  9
$DIMCLRE
 70
   256
  9
$DIMCLRT
 70
   256
  9
$DIMTFAC
 40
1.0
  9
$DIMGAP
 40
1.25
  9
$LUNITS
 70
     2
  9
$LUPREC
 70
     2
  9
$SKETCHINC
 40
0.1
  9
$FILLETRAD
 40
0.0
  9
$AUNITS
 70
     0
  9
$AUPREC
 70
     0
  9
$MENU
  1
.
  9
$ELEVATION
 40
0.0
  9
$PELEVATION
 40
0.0
  9
$THICKNESS
 40
0.0
  9
$LIMCHECK
 70
     0
  9
$BLIPMODE
 70
     0
  9
$CHAMFERA
 40
0.5
  9
$CHAMFERB
 40
0.5
  9
$SKPOLY
 70
     0
  9
$TDCREATE
 40
2453558.6097531128
  9
$TDUPDATE
 40
2453578.6049090279
  9
$TDINDWG
 40
0.0686637037
  9
$TDUSRTIMER
 40
0.0686635301
  9
$USRTIMER
 70
     1
  9
$ANGBASE
 50
0.0
  9
$ANGDIR
 70
     0
  9
$PDMODE
 70
     0
  9
$PDSIZE
 40
0.0
  9
$PLINEWID
 40
0.0
  9
$COORDS
 70
     2
  9
$SPLFRAME
 70
     0
  9
$SPLINETYPE
 70
     6
  9
$SPLINESEGS
 70
     8
  9
$ATTDIA
 70
     1
  9
$ATTREQ
 70
     1
  9
$HANDLING
 70
     1
  9
$HANDSEED
  5
19D8
  9
$SURFTAB1
 70
     6
  9
$SURFTAB2
 70
     6
  9
$SURFTYPE
 70
     6
  9
$SURFU
 70
     6
  9
$SURFV
 70
     6
  9
$UCSNAME
  2

  9
$UCSORG
 10
0.0
 20
0.0
 30
0.0
  9
$UCSXDIR
 10
1.0
 20
0.0
 30
0.0
  9
$UCSYDIR
 10
0.0
 20
1.0
 30
0.0
  9
$PUCSNAME
  2

  9
$PUCSORG
 10
0.0
 20
0.0
 30
0.0
  9
$PUCSXDIR
 10
1.0
 20
0.0
 30
0.0
  9
$PUCSYDIR
 10
0.0
 20
1.0
 30
0.0
  9
$USERI1
 70
     0
  9
$USERI2
 70
     0
  9
$USERI3
 70
     0
  9
$USERI4
 70
     0
  9
$USERI5
 70
     0
  9
$USERR1
 40
0.0
  9
$USERR2
 40
0.0
  9
$USERR3
 40
0.0
  9
$USERR4
 40
0.0
  9
$USERR5
 40
0.0
  9
$WORLDVIEW
 70
     1
  9
$SHADEDGE
 70
     3
  9
$SHADEDIF
 70
    70
  9
$TILEMODE
 70
     1
  9
$MAXACTVP
 70
    16
  9
$PLIMCHECK
 70
     0
  9
$PEXTMIN
 10
1.0000000000000000E+020
 20
1.0000000000000000E+020
 30
1.0000000000000000E+020
  9
$PEXTMAX
 10
-1.0000000000000000E+020
 20
-1.0000000000000000E+020
 30
-1.0000000000000000E+020
  9
$PLIMMIN
 10
0.0
 20
0.0
  9
$PLIMMAX
 10
12.0
 20
9.0
  9
$UNITMODE
 70
     0
  9
$VISRETAIN
 70
     0
  9
$PLINEGEN
 70
     0
  9
$PSLTSCALE
 70
     1
  0
ENDSEC
  0
SECTION
  2
TABLES
  0
TABLE
  2
VPORT
 70
     3
  0
VPORT
  2
*ACTIVE
 70
     0
 10
0.0
 20
0.0
 11
1.0
 21
1.0
 12
1.9254794057460169
 22
6.5781897207352236
 13
0.0
 23
0.0
 14
1.25
 24
1.25
 15
5.0
 25
5.0
 16
0.0
 26
0.0
 36
1.0
 17
0.0
 27
0.0
 37
0.0
 40
87.977724795633563
 41
1.859038142620232
 42
50.0
 43
0.0
 44
0.0
 50
0.0
 51
0.0
 71
     0
 72
 10000
 73
     1
 74
     1
 75
     0
 76
     0
 77
     0
 78
     0
  0
ENDTAB
  0
TABLE
  2
LTYPE
 70
    14
  0
LTYPE
  2
CONTINUOUS
 70
     0
  3
Solid line
 72
    65
 73
     0
 40
0.0
  0
LTYPE
  2
GEN7A
 70
     0
  3
__ . __ . __
 72
    65
 73
     4
 40
6.875
 49
5.0
 49
-0.625
 49
0.625
 49
-0.625
  0
LTYPE
  2
GEN7
 70
     0
  3
____ . ____ . ____ . ____ . ____ . ____ . ____
 72
    65
 73
     4
 40
13.75
 49
10.0
 49
-1.25
 49
1.25
 49
-1.25
  0
LTYPE
  2
AM_ISO02W050
 70
     0
  3
__ __ __ __ __ __ __ __ __ __ __ __ __ __ __
 72
    65
 73
     2
 40
7.5
 49
6.0
 49
-1.5
  0
LTYPE
  2
ACISOWELD
 70
     0
  3
_ _ _ _ _
 72
    65
 73
     2
 40
2.0
 49
2.0
 49
-1.0
  0
LTYPE
  2
ACISOTGB
 70
     0
  3
__ . . __ . .
 72
    65
 73
     6
 40
9.0
 49
4.0
 49
-1.0
 49
1.0
 49
-1.0
 49
1.0
 49
-1.0
  0
LTYPE
  2
ACISOTGL
 70
     0
  3
_ _ _ _ _
 72
    65
 73
     2
 40
3.0
 49
2.0
 49
-1.0
  0
LTYPE
  2
HIDDEN
 70
     0
  3
Hidden __ __ __ __ __ __ __ __ __ __ __ __ __ _
 72
    65
 73
     2
 40
9.5249999999999986
 49
6.3499999999999988
 49
-3.1749999999999989
  0
LTYPE
  2
PHANTOM2
 70
     0
  3
Phantom (.5x) ___ _ _ ___ _ _ ___ _ _ ___ _ _
 72
    65
 73
     6
 40
31.75
 49
15.875
 49
-3.1749999999999989
 49
3.1749999999999989
 49
-3.1749999999999989
 49
3.1749999999999989
 49
-3.1749999999999989
  0
LTYPE
  2
CENTER
 70
     0
  3
Center ____ _ ____ _ ____ _ ____ _ ____ _ ____
 72
    65
 73
     4
 40
50.799999999999997
 49
31.75
 49
-6.3499999999999988
 49
6.3499999999999988
 49
-6.3499999999999988
  0
LTYPE
  2
GEN3
 70
     0
  3
-- -- -- -- -- -- -- -- -- -- -- -- -- -- --
 72
    65
 73
     2
 40
6.25
 49
4.75
 49
-1.5
  0
LTYPE
  2
GEN3A
 70
     0
  3
 - - - - -
 72
    65
 73
     2
 40
3.125
 49
2.25
 49
-0.875
  0
LTYPE
  2
GEN4A
 70
     0
  3
_____ . . _____ . . _____ . . ____ .. ____
 72
    65
 73
     6
 40
16.25
 49
9.75
 49
-1.5
 49
1.0
 49
-1.5
 49
1.0
 49
-1.5
  0
LTYPE
  2
GENZIGZAG
 70
     0
  3
/\/-/\/-/\/-/\/-/\/-/\/
 72
    65
 73
     2
 40
12.0001
 49
0.0001
 49
-12.0
  0
ENDTAB
  0
TABLE
  2
LAYER
 70
     5
  0
LAYER
  2
0
 70
     0
 62
     7
  6
CONTINUOUS
  0
LAYER
  2
CAVITY-TOP
 70
     0
 62
   140
  6
CONTINUOUS
  0
LAYER
  2
CAVITY-SIDE
 70
     0
 62
   140
  6
CONTINUOUS
  0
ENDTAB
  0
TABLE
  2
STYLE
 70
     4
  0
STYLE
  2
STANDARD
 70
     0
 40
0.0
 41
1.0
 50
0.0
 71
     0
 42
1.5
  3
SIMPLEX.SHX
  4

  0
STYLE
  2
ACISOTS
 70
     0
 40
1.0
 41
1.0
 50
0.0
 71
     0
 42
1.5
  3
isocp.shx
  4

  0
STYLE
  2
ACISOGDT
 70
     0
 40
0.0
 41
1.0
 50
0.0
 71
     0
 42
1.5
  3
amgdt.shx
  4

  0
STYLE
  2

 70
     1
 40
0.0
 41
1.0
 50
0.0
 71
     0
 42
1.5
  3
genltshp.shx
  4

  0
ENDTAB
  0
TABLE
  2
VIEW
 70
     0
  0
ENDTAB
  0
TABLE
  2
UCS
 70
     0
  0
ENDTAB
  0
TABLE
  2
APPID
 70
    34
  0
APPID
  2
ACAD
 70
     0
  0
APPID
  2
GENIUS_GENCFG_13
 70
     0
  0
APPID
  2
GENIUS_GEVCFG0_13
 70
     0
  0
APPID
  2
GENIUS_GENCFG0_13
 70
     0
  0
APPID
  2
GENIUS_GENCFG1_13
 70
     0
  0
APPID
  2
GENIUS_GENCFG2_13
 70
     0
  0
APPID
  2
GENIUS_GENCFG3_13
 70
     0
  0
APPID
  2
GENIUS_GENCFG4_13
 70
     0
  0
APPID
  2
GEV_VCCNULL_SWITCH_OFF
 70
     0
  0
APPID
  2
GENIUS_GENDTOL_13
 70
     0
  0
APPID
  2
GENIUS_GENOENT_13
 70
     0
  0
APPID
  2
GENIUS_GEFCFG0_13
 70
     0
  0
APPID
  2
GENIUS_GENREC_13
 70
     0
  0
APPID
  2
GENIUS_GENODEF_13
 70
     0
  0
APPID
  2
GENIUS_GENOBJ-N-REC_13
 70
     0
  0
APPID
  2
GENIUS_GENOBJ-N-CEN_13
 70
     0
  0
APPID
  2
GENIUS_GENOBJ_13
 70
     0
  0
APPID
  2
GENIUS_GENOLIS_13
 70
     0
  0
APPID
  2
GENIUS_GENOREF_13
 70
     0
  0
APPID
  2
GENIUS_GENOBJ-N-CRS_13
 70
     0
  0
APPID
  2
MCAD_NO_VIS
 70
     0
  0
APPID
  2
ACAD_TEMP_GRAPHIC
 70
     0
  0
APPID
  2
MANIDSN
 70
     0
  0
APPID
  2
GENIUS_GENDIMSH_14
 70
     0
  0
APPID
  2
AD_DRAW
 70
     0
  0
APPID
  2
ACATTRIBSERVICES
 70
     0
  0
APPID
  2
DESIGNERASSEMBLIES
 70
     0
  0
APPID
  2
ACADM_DIM_EDIT
 70
     0
  0
APPID
  2
AMDT_DM_ADJ
 70
     0
  0
APPID
  2
GENIUS_GENREC_14
 70
     0
  0
APPID
  2
GENIUS_GENSCREG_15
 70
     0
  0
APPID
  2
GENIUS_GENOBJ-N-SDF_13
 70
     0
  0
APPID
  2
CONTENTBLOCKICON
 70
     0
  0
ENDTAB
  0
TABLE
  2
DIMSTYLE
 70
     7
  0
DIMSTYLE
  2
GEN-ISO
 70
     0
  3

  4

  5

  6
DIMARROW
  7
DIMARROW
 40
0.5
 41
3.0
 42
1.0
 43
10.0
 44
1.25
 45
0.0
 46
0.0
 47
0.05
 48
0.05
140
3.0
141
-3.0
142
0.0
143
0.0393701
144
1.0
145
0.0
146
1.0
147
1.25
 71
     0
 72
     1
 73
     0
 74
     0
 75
     0
 76
     0
 77
     1
 78
     0
170
     0
171
     2
172
     0
173
     1
174
     0
175
     0
176
   256
177
   256
178
   256
  0
DIMSTYLE
  2
GEN-ISO$4
 70
     0
  3

  4

  5

  6
DIMARROW
  7
DIMARROW
 40
0.5
 41
3.0
 42
1.0
 43
10.0
 44
1.25
 45
0.0
 46
0.0
 47
0.05
 48
0.05
140
3.0
141
-3.0
142
0.0
143
0.0393701
144
1.0
145
0.0
146
1.0
147
1.25
 71
     0
 72
     1
 73
     0
 74
     1
 75
     0
 76
     0
 77
     1
 78
     0
170
     0
171
     2
172
     0
173
     1
174
     0
175
     0
176
   256
177
   256
178
   256
  0
DIMSTYLE
  2
GEN-ISO$3
 70
     0
  3

  4

  5

  6
DIMARROW
  7
DIMARROW
 40
0.5
 41
3.0
 42
1.0
 43
10.0
 44
1.25
 45
0.0
 46
0.0
 47
0.05
 48
0.05
140
3.0
141
-3.0
142
0.0
143
0.0393701
144
1.0
145
0.0
146
1.0
147
1.25
 71
     0
 72
     1
 73
     0
 74
     1
 75
     0
 76
     0
 77
     1
 78
     0
170
     0
171
     2
172
     0
173
     1
174
     0
175
     0
176
   256
177
   256
178
   256
  0
DIMSTYLE
  2
GEN-ISO$6
 70
     0
  3

  4

  5

  6
DIMARROW
  7
DIMARROW
 40
0.5
 41
3.0
 42
1.0
 43
10.0
 44
1.25
 45
0.0
 46
0.0
 47
0.05
 48
0.05
140
3.0
141
-3.0
142
0.0
143
0.0393701
144
1.0
145
0.0
146
1.0
147
1.25
 71
     0
 72
     1
 73
     0
 74
     0
 75
     0
 76
     0
 77
     0
 78
     0
170
     0
171
     2
172
     0
173
     1
174
     0
175
     0
176
   256
177
   256
178
   256
  0
DIMSTYLE
  2
GEN-ISO-POS
 70
     0
  3

  4

  5
DIMARROW
  6

  7

 40
0.5
 41
2.5
 42
1.0
 43
10.0
 44
1.25
 45
0.0
 46
0.0
 47
0.05
 48
0.05
140
5.0
141
-3.0
142
0.0
143
0.0393701
144
1.0
145
0.0
146
1.0
147
1.5
 71
     0
 72
     0
 73
     0
 74
     0
 75
     0
 76
     0
 77
     1
 78
     0
170
     0
171
     2
172
     0
173
     0
174
     0
175
     0
176
     0
177
     0
178
   256
  0
DIMSTYLE
  2
GEN-ISO-AXE-F
 70
     0
  3

  4

  5
DIMARROW
  6
DIMARROW
  7
DIMARROW
 40
0.5
 41
3.0
 42
1.0
 43
10.0
 44
1.25
 45
0.0
 46
0.0
 47
0.05
 48
0.05
140
3.0
141
-3.0
142
0.0
143
0.0393701
144
1.0
145
0.0
146
1.0
147
0.63
 71
     0
 72
     0
 73
     0
 74
     0
 75
     1
 76
     1
 77
     1
 78
     0
170
     0
171
     2
172
     1
173
     1
174
     0
175
     0
176
     0
177
     0
178
   256
  0
DIMSTYLE
  2
GEN-ISO-AXE-H
 70
     0
  3

  4

  5
DIMARROW
  6
GENAXEH
  7
DIMARROW
 40
0.5
 41
3.0
 42
1.0
 43
10.0
 44
1.25
 45
0.0
 46
0.0
 47
0.05
 48
0.05
140
3.0
141
-3.0
142
0.0
143
0.0393701
144
2.0
145
0.0
146
1.0
147
0.63
 71
     0
 72
     0
 73
     0
 74
     0
 75
     1
 76
     1
 77
     1
 78
     0
170
     0
171
     2
172
     1
173
     1
174
     0
175
     0
176
     0
177
     0
178
   256
  0
ENDTAB
  0
ENDSEC
  0
SECTION
  2
BLOCKS
  0
BLOCK
  8
0
  2
$MODEL_SPACE
 70
     0
 10
0.0
 20
0.0
 30
0.0
  3
$MODEL_SPACE
  1

  0
ENDBLK
  5
1B
  8
0
  0
BLOCK
 67
     1
  8
0
  2
$PAPER_SPACE
 70
     0
 10
0.0
 20
0.0
 30
0.0
  3
$PAPER_SPACE
  1

  0
ENDBLK
  5
18
 67
     1
  8
0
  0
BLOCK
  8
0
  2
DIMARROW
 70
     0
 10
0.0
 20
0.0
 30
0.0
  3
DIMARROW
  1

  0
LINE
  5
30D
  8
0
 10
0.0
 20
0.0
 30
0.0
 11
-1.0
 21
-0.1999999999999886
 31
0.0
  0
LINE
  5
30E
  8
0
 10
-1.0
 20
-0.1999999999999886
 30
0.0
 11
-1.0
 21
0.1999999999999886
 31
0.0
  0
LINE
  5
30F
  8
0
 10
-1.0
 20
0.1999999999999886
 30
0.0
 11
0.0
 21
0.0
 31
0.0
  0
ENDBLK
  5
310
  8
0
  0
BLOCK
  8
0
  2
GENAXEH
 70
     0
 10
0.0
 20
0.0
 30
0.0
  3
GENAXEH
  1

  0
LINE
  5
788
  8
0
 10
-1.0
 20
0.0
 30
0.0
 11
1.0
 21
0.0
 31
0.0
  0
ENDBLK
  5
78A
  8
0
  0
BLOCK
  8
0
  2
CAV01-A3_CAVITY_TOP
 70
     0
 10
0.0
 20
0.0
 30
0.0
  3
CAV01-A3_CAVITY_TOP
  1

  0
ARC
  5
194A
  8
CAVITY-TOP
 10
-0.0000000000000018
 20
0.0
 30
0.0
 40
7.930000000000005
 50
292.5
 51
112.5
  0
CIRCLE
  5
194B
  8
CAVITY-TOP
 10
-0.0000000000000018
 20
0.0
 30
0.0
 40
7.3399999999999732
  0
CIRCLE
  5
194C
  8
CAVITY-TOP
 10
-0.0000000000000018
 20
0.0
 30
0.0
 40
6.8049627928327228
  0
CIRCLE
  5
194D
  8
CAVITY-TOP
 10
-0.0000000000000018
 20
0.0
 30
0.0
 40
6.3499999999999917
  0
CIRCLE
  5
194E
  8
CAVITY-TOP
 10
-0.0000000000000018
 20
0.0
 30
0.0
 40
6.0049627928327398
  0
CIRCLE
  5
194F
  8
CAVITY-TOP
 10
-0.0000000000000018
 20
0.0
 30
0.0
 40
5.5500000000000087
  0
CIRCLE
  5
1950
  8
CAVITY-TOP
 10
-0.0000000000000018
 20
0.0
 30
0.0
 40
4.9999999999999982
  0
CIRCLE
  5
1951
  8
CAVITY-TOP
 10
-0.0000000000000018
 20
0.0
 30
0.0
 40
12.69999999999998
  0
LINE
  5
1952
  8
CAVITY-TOP
  6
GEN7
 62
     1
 10
17.699999999999982
 20
0.0
 30
0.0
 11
-17.699999999999989
 21
0.0
 31
0.0
1001
GENIUS_GENODEF_13
1002
{
1000
HIER
1070
     0
1002
}
1002
{
1000
MANEDIT
1070
     0
1002
}
1002
{
1000
NOSEL
1070
     0
1002
}
1002
{
1000
BEHIND
1070
     0
1002
}
1002
{
1000
OTHER
1070
     0
1002
}
1002
{
1000
REACTOR
1002
}
1001
GENIUS_GENOBJ-N-CEN_13
1002
{
1000
OWNER
1000
GEN
1002
}
  0
LINE
  5
1953
  8
CAVITY-TOP
  6
GEN7
 62
     1
 10
-0.0000000000000009
 20
17.699999999999989
 30
0.0
 11
-0.0000000000000018
 21
-17.699999999999989
 31
0.0
1001
GENIUS_GENOBJ-N-CEN_13
1002
{
1000
OWNER
1000
GEN
1002
}
1001
GENIUS_GENODEF_13
1002
{
1000
HIER
1070
     0
1002
}
1002
{
1000
MANEDIT
1070
     0
1002
}
1002
{
1000
NOSEL
1070
     0
1002
}
1002
{
1000
BEHIND
1070
     0
1002
}
1002
{
1000
OTHER
1070
     0
1002
}
1002
{
1000
REACTOR
1002
}
  0
CIRCLE
  5
1954
  8
CAVITY-TOP
 10
-0.0000000000000018
 20
0.0
 30
0.0
 40
8.0000000000000018
  0
ARC
  5
1955
  8
CAVITY-TOP
 10
-0.0000000000000054
 20
0.0
 30
0.0
 40
7.9300000000000042
 50
157.49999999999989
 51
292.5
  0
TEXT
  5
1956
  8
CAVITY-SIDE
 62
     1
 10
-4.738080543640538
 20
0.3015777797887722
 30
0.0
 40
1.0
  1
01-A3
  0
ENDBLK
  5
1949
  8
0
  0
BLOCK
  8
0
  2
CAV01-A3_CAVITY_SIDE
 70
     0
 10
0.0
 20
0.0
 30
0.0
  3
CAV01-A3_CAVITY_SIDE
  1

  0
LINE
  5
195B
  8
CAVITY-SIDE
 10
-8.0
 20
-2.29000000000002
 30
0.0
 11
-8.0
 21
-0.5
 31
0.0
  0
LINE
  5
195C
  8
CAVITY-SIDE
 10
12.69999999999999
 20
-0.5
 30
0.0
 11
-12.69999999999999
 21
-0.5
 31
0.0
  0
LINE
  5
195D
  8
CAVITY-SIDE
 10
-12.69999999999999
 20
-0.5
 30
0.0
 11
-12.69999999999999
 21
0.0
 31
0.0
  0
LINE
  5
195E
  8
CAVITY-SIDE
 62
     1
 10
-12.69999999999999
 20
0.0
 30
0.0
 11
12.69999999999999
 21
0.0
 31
0.0
  0
LINE
  5
195F
  8
CAVITY-SIDE
 10
12.69999999999999
 20
0.0
 30
0.0
 11
12.69999999999999
 21
-0.5
 31
0.0
  0
LINE
  5
1960
  8
CAVITY-SIDE
 10
8.0
 20
-0.5
 30
0.0
 11
8.0
 21
-2.29000000000002
 31
0.0
  0
LINE
  5
1961
  8
CAVITY-SIDE
 10
-8.0
 20
-2.29000000000002
 30
0.0
 11
-7.9300000000000059
 21
-2.3600000000000132
 31
0.0
  0
LINE
  5
1962
  8
CAVITY-SIDE
 10
-7.9300000000000059
 20
-2.3600000000000132
 30
0.0
 11
-7.9300000000000059
 21
-9.1999999999999886
 31
0.0
  0
LINE
  5
1963
  8
CAVITY-SIDE
 10
8.0
 20
-2.29000000000002
 30
0.0
 11
7.9300000000000059
 21
-2.3600000000000132
 31
0.0
  0
LINE
  5
1964
  8
CAVITY-SIDE
 10
7.9300000000000059
 20
-2.3600000000000132
 30
0.0
 11
7.9300000000000059
 21
-9.1999999999999886
 31
0.0
  0
LINE
  5
1965
  8
CAVITY-SIDE
 10
7.3399999999999741
 20
-12.17500000000001
 30
0.0
 11
7.3399999999999741
 21
-2.950000000000045
 31
0.0
  0
LINE
  5
1966
  8
CAVITY-SIDE
 10
7.3399999999999741
 20
-2.950000000000045
 30
0.0
 11
7.9300000000000059
 21
-2.3600000000000132
 31
0.0
  0
LINE
  5
1967
  8
CAVITY-SIDE
 10
-7.3400000000000034
 20
-12.17500000000001
 30
0.0
 11
-7.3400000000000034
 21
-2.950000000000045
 31
0.0
  0
LINE
  5
1968
  8
CAVITY-SIDE
 10
-7.3400000000000034
 20
-2.950000000000045
 30
0.0
 11
-7.9300000000000059
 21
-2.3600000000000132
 31
0.0
  0
LINE
  5
1969
  8
CAVITY-SIDE
 10
-7.9300000000000059
 20
-9.1999999999999886
 30
0.0
 11
-7.3400000000000034
 21
-11.40190997646579
 31
0.0
  0
LINE
  5
196A
  8
CAVITY-SIDE
 10
7.9300000000000059
 20
-9.1999999999999886
 30
0.0
 11
7.3399999999999741
 21
-11.401909976465619
 31
0.0
  0
LINE
  5
196B
  8
CAVITY-SIDE
 10
-7.3400000000000034
 20
-11.40190997646579
 30
0.0
 11
7.3399999999999741
 21
-11.401909976465619
 31
0.0
  0
LINE
  5
196C
  8
CAVITY-SIDE
 10
7.9300000000000059
 20
-9.1999999999999886
 30
0.0
 11
-7.9300000000000059
 21
-9.1999999999999886
 31
0.0
  0
LINE
  5
196D
  8
CAVITY-SIDE
 10
-6.3499999999999943
 20
-21.125
 30
0.0
 11
-6.3499999999999943
 21
-13.42500000000001
 31
0.0
  0
LINE
  5
196E
  8
CAVITY-SIDE
 10
6.3499999999999943
 20
-21.125
 30
0.0
 11
6.3499999999999943
 21
-13.42500000000001
 31
0.0
  0
LINE
  5
196F
  8
CAVITY-SIDE
 10
-7.3400000000000034
 20
-12.17500000000001
 30
0.0
 11
7.3399999999999741
 21
-12.17500000000001
 31
0.0
  0
LINE
  5
1970
  8
CAVITY-SIDE
 10
-6.3499999999999943
 20
-21.125
 30
0.0
 11
6.3499999999999943
 21
-21.125
 31
0.0
  0
LINE
  5
1971
  8
CAVITY-SIDE
 10
-6.8049627928327254
 20
-12.17500000000001
 30
0.0
 11
-6.3499999999999943
 21
-13.42500000000001
 31
0.0
  0
LINE
  5
1972
  8
CAVITY-SIDE
 10
6.3499999999999943
 20
-13.42500000000001
 30
0.0
 11
6.8049627928327254
 21
-12.17500000000001
 31
0.0
  0
LINE
  5
1973
  8
CAVITY-SIDE
 10
-5.5500000000000114
 20
-22.375
 30
0.0
 11
-5.5500000000000114
 21
-28.100000000000019
 31
0.0
  0
LINE
  5
1974
  8
CAVITY-SIDE
 10
-5.5500000000000114
 20
-28.100000000000019
 30
0.0
 11
5.5500000000000114
 21
-28.100000000000019
 31
0.0
  0
LINE
  5
1975
  8
CAVITY-SIDE
 10
5.5500000000000114
 20
-28.100000000000019
 30
0.0
 11
5.5500000000000114
 21
-22.375
 31
0.0
  0
LINE
  5
1976
  8
CAVITY-SIDE
 10
-5.5500000000000114
 20
-22.375
 30
0.0
 11
-6.0049627928327416
 21
-21.125
 31
0.0
  0
LINE
  5
1977
  8
CAVITY-SIDE
 10
5.5500000000000114
 20
-22.375
 30
0.0
 11
6.0049627928327416
 21
-21.125
 31
0.0
  0
LINE
  5
1978
  8
CAVITY-SIDE
 10
-5.5500000000000114
 20
-28.100000000000019
 30
0.0
 11
-5.0
 21
-28.650000000000041
 31
0.0
  0
LINE
  5
1979
  8
CAVITY-SIDE
 10
-5.0
 20
-28.650000000000041
 30
0.0
 11
-5.0
 21
-29.100000000000019
 31
0.0
  0
LINE
  5
197A
  8
CAVITY-SIDE
 10
-5.0
 20
-29.100000000000019
 30
0.0
 11
0.0
 21
-31.986751345948111
 31
0.0
  0
LINE
  5
197B
  8
CAVITY-SIDE
 10
0.0
 20
-31.986751345948111
 30
0.0
 11
5.0
 21
-29.100000000000019
 31
0.0
  0
LINE
  5
197C
  8
CAVITY-SIDE
 10
5.0
 20
-29.100000000000019
 30
0.0
 11
5.0
 21
-28.650000000000041
 31
0.0
  0
LINE
  5
197D
  8
CAVITY-SIDE
 10
5.0
 20
-28.650000000000041
 30
0.0
 11
5.5500000000000114
 21
-28.100000000000019
 31
0.0
  0
LINE
  5
197E
  8
CAVITY-SIDE
 10
-7.3400000000000034
 20
-2.950000000000045
 30
0.0
 11
7.3399999999999741
 21
-2.950000000000045
 31
0.0
  0
LINE
  5
197F
  8
CAVITY-SIDE
 10
7.9300000000000059
 20
-2.3600000000000132
 30
0.0
 11
-7.9300000000000059
 21
-2.3600000000000132
 31
0.0
  0
LINE
  5
1980
  8
CAVITY-SIDE
 10
-8.0
 20
-2.29000000000002
 30
0.0
 11
8.0
 21
-2.29000000000002
 31
0.0
  0
LINE
  5
1981
  8
CAVITY-SIDE
  6
GEN7
 62
     1
 10
0.0
 20
4.9999999999999991
 30
0.0
 11
-0.0000000000000009
 21
-36.986751345948107
 31
0.0
1001
GENIUS_GENODEF_13
1002
{
1000
HIER
1070
     0
1002
}
1002
{
1000
MANEDIT
1070
     0
1002
}
1002
{
1000
NOSEL
1070
     0
1002
}
1002
{
1000
BEHIND
1070
     0
1002
}
1002
{
1000
OTHER
1070
     0
1002
}
1002
{
1000
REACTOR
1002
}
1001
GENIUS_GENOBJ-N-CEN_13
1002
{
1000
OWNER
1000
GEN
1002
}
  0
LINE
  5
1982
  8
CAVITY-SIDE
  6
GEN7
 62
     1
 10
-7.3400000000000034
 20
-11.89999999999997
 30
0.0
 11
7.3399999999999741
 21
-11.89999999999997
 31
0.0
  0
LINE
  5
1983
  8
CAVITY-SIDE
  6
GEN7
 62
     1
 10
7.9300000000000059
 20
-6.25
 30
0.0
 11
-7.9300000000000059
 21
-6.25
 31
0.0
  0
LINE
  5
1984
  8
CAVITY-SIDE
 62
     1
 10
2.0
 20
-9.0749999999999886
 30
0.0
 11
-2.0
 21
-9.0749999999999886
 31
0.0
  0
LINE
  5
1985
  8
CAVITY-SIDE
  6
GEN7
 62
     1
 10
-6.3499999999999943
 20
-17.699999999999989
 30
0.0
 11
6.3499999999999943
 21
-17.699999999999989
 31
0.0
  0
LINE
  5
1986
  8
CAVITY-SIDE
  6
GEN7
 62
     1
 10
6.3499999999999943
 20
-20.899999999999981
 30
0.0
 11
-6.3499999999999943
 21
-20.899999999999981
 31
0.0
  0
LINE
  5
1987
  8
CAVITY-SIDE
 62
     1
 10
1.485635570704062
 20
-19.300000000000011
 30
0.0
 11
-1.5
 21
-19.300000000000011
 31
0.0
  0
LINE
  5
1988
  8
CAVITY-SIDE
  6
GEN7
 62
     1
 10
5.5500000000000114
 20
-28.100000000000019
 30
0.0
 11
-5.5500000000000114
 21
-28.100000000000019
 31
0.0
  0
LINE
  5
1989
  8
CAVITY-SIDE
 10
-6.3499999999999943
 20
-13.42500000000001
 30
0.0
 11
6.3499999999999943
 21
-13.42500000000001
 31
0.0
  0
LINE
  5
198A
  8
CAVITY-SIDE
 10
-5.5500000000000114
 20
-22.375
 30
0.0
 11
5.5500000000000114
 21
-22.375
 31
0.0
  0
LINE
  5
198B
  8
CAVITY-SIDE
 10
-5.0
 20
-29.100000000000019
 30
0.0
 11
5.0
 21
-29.100000000000019
 31
0.0
  0
LINE
  5
198C
  8
CAVITY-SIDE
 10
5.0
 20
-28.650000000000041
 30
0.0
 11
-5.0
 21
-28.650000000000041
 31
0.0
  0
ENDBLK
  5
195A
  8
0
  0
ENDSEC
  0
SECTION
  2
ENTITIES
  0
INSERT
  5
1957
  8
CAVITY-SIDE
  2
CAV01-A3_CAVITY_TOP
 10
0.0000000000000036
 20
32.446537204212632
 30
0.0
  0
INSERT
  5
198D
  8
CAVITY-SIDE
  2
CAV01-A3_CAVITY_SIDE
 10
0.0
 20
0.0
 30
0.0
  0
ENDSEC
  0
EOF
