  0
SECTION
  2
HEADER
  9
$ACADVER
  1
AC1009
  9
$INSBASE
 10
0.0
 20
0.0
 30
0.0
  9
$EXTMIN
 10
-22.4
 20
-37.270058
 30
0.0
  9
$EXTMAX
 10
22.4
 20
71.660797
 30
0.0
  9
$LIMMIN
 10
0.0
 20
0.0
  9
$LIMMAX
 10
420.0
 20
297.0
  9
$ORTHOMODE
 70
     0
  9
$REGENMODE
 70
     1
  9
$FILLMODE
 70
     1
  9
$QTEXTMODE
 70
     0
  9
$MIRRTEXT
 70
     1
  9
$DRAGMODE
 70
     2
  9
$LTSCALE
 40
1.0
  9
$OSMODE
 70
    39
  9
$ATTMODE
 70
     1
  9
$TEXTSIZE
 40
1.0
  9
$TRACEWID
 40
0.05
  9
$TEXTSTYLE
  7
STANDARD
  9
$CLAYER
  8
CAVITY-SIDE
  9
$CELTYPE
  6
BYLAYER
  9
$CECOLOR
 62
   256
  9
$DIMSCALE
 40
1.0
  9
$DIMASZ
 40
3.0
  9
$DIMEXO
 40
0.0625
  9
$DIMDLI
 40
0.38
  9
$DIMRND
 40
0.0
  9
$DIMDLE
 40
0.0
  9
$DIMEXE
 40
0.18
  9
$DIMTP
 40
0.0
  9
$DIMTM
 40
0.0
  9
$DIMTXT
 40
3.0
  9
$DIMCEN
 40
0.6
  9
$DIMTSZ
 40
0.0
  9
$DIMTOL
 70
     0
  9
$DIMLIM
 70
     0
  9
$DIMTIH
 70
     1
  9
$DIMTOH
 70
     1
  9
$DIMSE1
 70
     0
  9
$DIMSE2
 70
     0
  9
$DIMTAD
 70
     0
  9
$DIMZIN
 70
     0
  9
$DIMBLK
  1

  9
$DIMASO
 70
     1
  9
$DIMSHO
 70
     1
  9
$DIMPOST
  1

  9
$DIMAPOST
  1

  9
$DIMALT
 70
     0
  9
$DIMALTD
 70
     2
  9
$DIMALTF
 40
0.03937
  9
$DIMLFAC
 40
1.0
  9
$DIMTOFL
 70
     0
  9
$DIMTVP
 40
1.2
  9
$DIMTIX
 70
     0
  9
$DIMSOXD
 70
     0
  9
$DIMSAH
 70
     0
  9
$DIMBLK1
  1

  9
$DIMBLK2
  1

  9
$DIMSTYLE
  2
STANDARD
  9
$DIMCLRD
 70
     0
  9
$DIMCLRE
 70
     0
  9
$DIMCLRT
 70
     0
  9
$DIMTFAC
 40
1.0
  9
$DIMGAP
 40
0.09
  9
$LUNITS
 70
     2
  9
$LUPREC
 70
     4
  9
$SKETCHINC
 40
0.1
  9
$FILLETRAD
 40
0.0
  9
$AUNITS
 70
     0
  9
$AUPREC
 70
     0
  9
$MENU
  1
acad
  9
$ELEVATION
 40
0.0
  9
$PELEVATION
 40
0.0
  9
$THICKNESS
 40
0.0
  9
$LIMCHECK
 70
     0
  9
$BLIPMODE
 70
     0
  9
$CHAMFERA
 40
0.0
  9
$CHAMFERB
 40
0.0
  9
$SKPOLY
 70
     0
  9
$TDCREATE
 40
2450480.417383
  9
$TDUPDATE
 40
2452709.372478
  9
$TDINDWG
 40
0.002768
  9
$TDUSRTIMER
 40
0.002768
  9
$USRTIMER
 70
     1
  9
$ANGBASE
 50
0.0
  9
$ANGDIR
 70
     0
  9
$PDMODE
 70
     0
  9
$PDSIZE
 40
0.0
  9
$PLINEWID
 40
0.0
  9
$COORDS
 70
     1
  9
$SPLFRAME
 70
     0
  9
$SPLINETYPE
 70
     6
  9
$SPLINESEGS
 70
     8
  9
$ATTDIA
 70
     1
  9
$ATTREQ
 70
     1
  9
$HANDLING
 70
 12289
  9
$HANDSEED
  5
3D2
  9
$SURFTAB1
 70
     6
  9
$SURFTAB2
 70
     6
  9
$SURFTYPE
 70
     6
  9
$SURFU
 70
     6
  9
$SURFV
 70
     6
  9
$UCSNAME
  2

  9
$UCSORG
 10
0.0
 20
0.0
 30
0.0
  9
$UCSXDIR
 10
1.0
 20
0.0
 30
0.0
  9
$UCSYDIR
 10
0.0
 20
1.0
 30
0.0
  9
$PUCSNAME
  2

  9
$PUCSORG
 10
0.0
 20
0.0
 30
0.0
  9
$PUCSXDIR
 10
1.0
 20
0.0
 30
0.0
  9
$PUCSYDIR
 10
0.0
 20
1.0
 30
0.0
  9
$USERI1
 70
     0
  9
$USERI2
 70
     0
  9
$USERI3
 70
     0
  9
$USERI4
 70
     0
  9
$USERI5
 70
     0
  9
$USERR1
 40
0.0
  9
$USERR2
 40
0.0
  9
$USERR3
 40
0.0
  9
$USERR4
 40
0.0
  9
$USERR5
 40
0.0
  9
$WORLDVIEW
 70
     1
  9
$SHADEDGE
 70
     3
  9
$SHADEDIF
 70
    70
  9
$TILEMODE
 70
     1
  9
$MAXACTVP
 70
    16
  9
$PLIMCHECK
 70
     0
  9
$PEXTMIN
 10
1.000000E+020
 20
1.000000E+020
 30
1.000000E+020
  9
$PEXTMAX
 10
-1.000000E+020
 20
-1.000000E+020
 30
-1.000000E+020
  9
$PLIMMIN
 10
0.0
 20
0.0
  9
$PLIMMAX
 10
12.0
 20
9.0
  9
$UNITMODE
 70
     0
  9
$VISRETAIN
 70
     0
  9
$PLINEGEN
 70
     0
  9
$PSLTSCALE
 70
     1
  0
ENDSEC
  0
SECTION
  2
TABLES
  0
TABLE
  2
VPORT
 70
     3
  0
VPORT
  2
*ACTIVE
 70
     0
 10
0.0
 20
0.0
 11
1.0
 21
1.0
 12
2.866656
 22
17.024523
 13
0.0
 23
0.0
 14
1.0
 24
1.0
 15
0.0
 25
0.0
 16
0.0
 26
0.0
 36
1.0
 17
0.0
 27
0.0
 37
0.0
 40
119.764796
 41
1.860465
 42
50.0
 43
0.0
 44
0.0
 50
0.0
 51
0.0
 71
     0
 72
   100
 73
     1
 74
     1
 75
     0
 76
     0
 77
     0
 78
     0
  0
ENDTAB
  0
TABLE
  2
LTYPE
 70
    10
  0
LTYPE
  2
CENTER
 70
     0
  3
CENTER
 72
    65
 73
     0
 40
0.0
  0
LTYPE
  2
DASHDOT
 70
     0
  3
DASHDOT
 72
    65
 73
     0
 40
0.0
  0
LTYPE
  2
CONTINUOUS
 70
     0
  3
Solid line
 72
    65
 73
     0
 40
0.0
  0
LTYPE
  2
GEN7
 70
     0
  3
____ . ____ . ____ . ____ . ____ . ____ . ____
 72
    65
 73
     4
 40
13.75
 49
10.0
 49
-1.25
 49
1.25
 49
-1.25
  0
LTYPE
  2
GEN3
 70
     0
  3
-- -- -- -- -- -- -- -- -- -- -- -- -- -- --
 72
    65
 73
     2
 40
6.25
 49
4.75
 49
-1.5
  0
LTYPE
  2
GEN3A
 70
     0
  3
 - - - - -
 72
    65
 73
     2
 40
3.125
 49
2.25
 49
-0.875
  0
LTYPE
  2
GEN7A
 70
     0
  3
__ . __ . __
 72
    65
 73
     4
 40
6.875
 49
4.75
 49
-0.875
 49
0.375
 49
-0.875
  0
LTYPE
  2
GEN4A
 70
     0
  3
_____ . . _____ . . _____ . . ____ .. ____
 72
    65
 73
     6
 40
16.25
 49
9.75
 49
-1.5
 49
1.0
 49
-1.5
 49
1.0
 49
-1.5
  0
LTYPE
  2
GENZIGZAG
 70
     0
  3
/\/-/\/-/\/-/\/-/\/-/\/
 72
    65
 73
     2
 40
12.0001
 49
0.0001
 49
-12.0
  0
LTYPE
  2
AM_ISO02W050
 70
     0
  3
__ __ __ __ __ __ __ __ __ __ __ __ __ __ __
 72
    65
 73
     2
 40
7.5
 49
6.0
 49
-1.5
  0
ENDTAB
  0
TABLE
  2
LAYER
 70
     4
  0
LAYER
  2
0
 70
     0
 62
     7
  6
CENTER
  0
LAYER
  2
CAVITY-TOP
 70
     0
 62
   140
  6
CONTINUOUS
  0
LAYER
  2
CAVITY-SIDE
 70
     0
 62
   140
  6
CONTINUOUS
  0
LAYER
  2
DEFPOINTS
 70
     0
 62
     7
  6
CENTER
  0
ENDTAB
  0
TABLE
  2
STYLE
 70
     2
  0
STYLE
  2
STANDARD
 70
     0
 40
0.0
 41
1.0
 50
0.0
 71
     0
 42
1.0
  3
txt
  4

  0
STYLE
  2

 70
     1
 40
0.0
 41
1.0
 50
0.0
 71
     0
 42
1.0
  3
genltshp.shx
  4

  0
ENDTAB
  0
TABLE
  2
VIEW
 70
     0
  0
ENDTAB
  0
TABLE
  2
UCS
 70
     0
  0
ENDTAB
  0
TABLE
  2
APPID
 70
    22
  0
APPID
  2
ACAD
 70
     0
  0
APPID
  2
GENIUS_GENCFG_13
 70
     0
  0
APPID
  2
GENIUS_GENCFG0_13
 70
     0
  0
APPID
  2
GENIUS_GENCFG1_13
 70
     0
  0
APPID
  2
GENIUS_GENCFG2_13
 70
     0
  0
APPID
  2
GENIUS_GENCFG3_13
 70
     0
  0
APPID
  2
GENIUS_GENCFG4_13
 70
     0
  0
APPID
  2
GENIUS_GEVCFG0_13
 70
     0
  0
APPID
  2
GENIUS_GENOENT_13
 70
     0
  0
APPID
  2
GEV_VCCNULL_SWITCH_OFF
 70
     0
  0
APPID
  2
GENIUS_GENDTOL_13
 70
     0
  0
APPID
  2
GENIUS_GEFCFG0_13
 70
     0
  0
APPID
  2
GENIUS_GENREC_13
 70
     0
  0
APPID
  2
GENIUS_GENODEF_13
 70
     0
  0
APPID
  2
GENIUS_GENOBJ-N-REC_13
 70
     0
  0
APPID
  2
GENIUS_GENOBJ-N-CEN_13
 70
     0
  0
APPID
  2
GENIUS_GENOBJ_13
 70
     0
  0
APPID
  2
GENIUS_GENOLIS_13
 70
     0
  0
APPID
  2
GENIUS_GENOREF_13
 70
     0
  0
APPID
  2
GENIUS_GENOBJ-N-CRS_13
 70
     0
  0
APPID
  2
MCAD_NO_VIS
 70
     0
  0
APPID
  2
ACAD_TEMP_GRAPHIC
 70
     0
  0
ENDTAB
  0
TABLE
  2
DIMSTYLE
 70
     9
  0
DIMSTYLE
  2
STANDARD
 70
     0
  3

  4

  5

  6

  7

 40
1.0
 41
0.18
 42
0.0625
 43
0.38
 44
0.18
 45
0.0
 46
0.0
 47
0.0
 48
0.0
140
0.18
141
0.09
142
0.0
143
25.4
144
1.0
145
0.0
146
1.0
147
0.09
 71
     0
 72
     0
 73
     1
 74
     1
 75
     0
 76
     0
 77
     0
 78
     0
170
     0
171
     2
172
     0
173
     0
174
     0
175
     0
176
     0
177
     0
178
     0
  0
DIMSTYLE
  2
GEN-ISO
 70
     0
  3

  4

  5

  6
DIMARROW
  7
DIMARROW
 40
1.0
 41
3.0
 42
1.0
 43
10.0
 44
1.25
 45
0.0
 46
0.0
 47
0.05
 48
0.05
140
3.0
141
-3.0
142
0.0
143
0.03937
144
1.0
145
0.0
146
1.0
147
0.63
 71
     0
 72
     0
 73
     0
 74
     0
 75
     0
 76
     0
 77
     1
 78
     0
170
     0
171
     2
172
     0
173
     1
174
     0
175
     0
176
   256
177
   256
178
   256
  0
DIMSTYLE
  2
GEN-ISO$2
 70
     0
  3

  4

  5

  6
DIMARROW
  7
DIMARROW
 40
1.0
 41
3.0
 42
1.0
 43
10.0
 44
1.25
 45
0.0
 46
0.0
 47
0.05
 48
0.05
140
3.0
141
-3.0
142
0.0
143
0.03937
144
1.0
145
0.0
146
1.0
147
0.63
 71
     0
 72
     0
 73
     1
 74
     1
 75
     0
 76
     0
 77
     2
 78
     1
170
     0
171
     2
172
     0
173
     1
174
     0
175
     0
176
   256
177
   256
178
   256
  0
DIMSTYLE
  2
GEN-ISO$3
 70
     0
  3

  4

  5

  6
DIMARROW
  7
DIMARROW
 40
1.0
 41
3.0
 42
1.0
 43
10.0
 44
1.25
 45
0.0
 46
0.0
 47
0.05
 48
0.05
140
3.0
141
-3.0
142
0.0
143
0.03937
144
1.0
145
0.0
146
1.0
147
0.63
 71
     0
 72
     0
 73
     0
 74
     1
 75
     0
 76
     0
 77
     1
 78
     0
170
     0
171
     2
172
     0
173
     1
174
     0
175
     0
176
   256
177
   256
178
   256
  0
DIMSTYLE
  2
GEN-ISO$4
 70
     0
  3

  4

  5

  6
DIMARROW
  7
DIMARROW
 40
1.0
 41
3.0
 42
1.0
 43
10.0
 44
1.25
 45
0.0
 46
0.0
 47
0.05
 48
0.05
140
3.0
141
-3.0
142
0.0
143
0.03937
144
1.0
145
0.0
146
1.0
147
0.63
 71
     0
 72
     0
 73
     0
 74
     1
 75
     0
 76
     0
 77
     1
 78
     0
170
     0
171
     2
172
     0
173
     1
174
     0
175
     0
176
   256
177
   256
178
   256
  0
DIMSTYLE
  2
GEN-ISO$6
 70
     0
  3

  4

  5

  6
DIMARROW
  7
DIMARROW
 40
1.0
 41
3.0
 42
1.0
 43
10.0
 44
1.25
 45
0.0
 46
0.0
 47
0.05
 48
0.05
140
3.0
141
-3.0
142
0.0
143
0.03937
144
1.0
145
0.0
146
1.0
147
0.63
 71
     0
 72
     0
 73
     0
 74
     0
 75
     0
 76
     0
 77
     1
 78
     0
170
     0
171
     2
172
     0
173
     1
174
     0
175
     0
176
     0
177
     0
178
   256
  0
DIMSTYLE
  2
GEN-ISO-POS
 70
     0
  3

  4

  5

  6

  7

 40
1.0
 41
2.5
 42
1.0
 43
10.0
 44
1.25
 45
0.0
 46
0.0
 47
0.05
 48
0.05
140
5.0
141
-3.0
142
0.0
143
0.03937
144
1.0
145
0.0
146
1.0
147
1.5
 71
     0
 72
     0
 73
     0
 74
     0
 75
     0
 76
     0
 77
     1
 78
     0
170
     0
171
     2
172
     0
173
     0
174
     0
175
     0
176
     0
177
     0
178
   256
  0
DIMSTYLE
  2
GEN-ISO-AXE-F
 70
     0
  3

  4

  5
DIMARROW
  6
DIMARROW
  7
DIMARROW
 40
1.0
 41
3.0
 42
1.0
 43
10.0
 44
1.25
 45
0.0
 46
0.0
 47
0.05
 48
0.05
140
3.0
141
-3.0
142
0.0
143
0.03937
144
1.0
145
0.0
146
1.0
147
0.63
 71
     0
 72
     0
 73
     0
 74
     0
 75
     1
 76
     1
 77
     1
 78
     0
170
     0
171
     2
172
     1
173
     1
174
     0
175
     0
176
     0
177
     0
178
   256
  0
DIMSTYLE
  2
GEN-ISO-AXE-H
 70
     0
  3

  4

  5
DIMARROW
  6

  7
DIMARROW
 40
1.0
 41
3.0
 42
1.0
 43
10.0
 44
1.25
 45
0.0
 46
0.0
 47
0.05
 48
0.05
140
3.0
141
-3.0
142
0.0
143
0.03937
144
2.0
145
0.0
146
1.0
147
0.63
 71
     0
 72
     0
 73
     0
 74
     0
 75
     1
 76
     1
 77
     1
 78
     0
170
     0
171
     2
172
     1
173
     1
174
     0
175
     0
176
     0
177
     0
178
   256
  0
ENDTAB
  0
ENDSEC
  0
SECTION
  2
BLOCKS
  0
BLOCK
  8
0
  2
$MODEL_SPACE
 70
     0
 10
0.0
 20
0.0
 30
0.0
  3
$MODEL_SPACE
  1

  0
ENDBLK
  5
2A
  8
0
  0
BLOCK
 67
     1
  8
0
  2
$PAPER_SPACE
 70
     0
 10
0.0
 20
0.0
 30
0.0
  3
$PAPER_SPACE
  1

  0
ENDBLK
  5
28
 67
     1
  8
0
  0
BLOCK
  8
0
  2
CAV02-2CAVITYSIDE
 70
     0
 10
0.0
 20
0.0
 30
0.0
  3
CAV02-2CAVITYSIDE
  1

  0
LINE
  5
2C5
  8
CAVITY-SIDE
 62
     1
 10
-16.0
 20
0.0
 30
0.0
 11
16.0
 21
0.0
 31
0.0
  0
LINE
  5
2C6
  8
CAVITY-SIDE
  6
GEN7
 62
     1
 10
-8.75
 20
-19.4
 30
0.0
 11
8.75
 21
-19.4
 31
0.0
  0
LINE
  5
2C7
  8
CAVITY-SIDE
  6
GEN7
 62
     1
 10
-9.525
 20
-10.0
 30
0.0
 11
9.525
 21
-10.0
 31
0.0
  0
LINE
  5
2C8
  8
CAVITY-SIDE
 10
-9.58814
 20
-3.25
 30
0.0
 11
9.58814
 21
-3.25
 31
0.0
  0
LINE
  5
2C9
  8
CAVITY-SIDE
 10
9.525
 20
-3.31314
 30
0.0
 11
-9.525
 21
-3.31314
 31
0.0
  0
LINE
  5
2CA
  8
CAVITY-SIDE
 10
-8.75
 20
-19.55
 30
0.0
 11
8.75
 21
-19.55
 31
0.0
  0
LINE
  5
2CB
  8
CAVITY-SIDE
 10
-8.75
 20
-4.08814
 30
0.0
 11
8.75
 21
-4.08814
 31
0.0
  0
LINE
  5
2CC
  8
CAVITY-SIDE
 10
-9.58814
 20
-3.25
 30
0.0
 11
-10.325
 21
-0.5
 31
0.0
  0
LINE
  5
2CD
  8
CAVITY-SIDE
 10
-8.75
 20
-19.55
 30
0.0
 11
-8.75
 21
-14.8
 31
0.0
  0
LINE
  5
2CE
  8
CAVITY-SIDE
 10
-9.525
 20
-14.8
 30
0.0
 11
-9.525
 21
-3.31314
 31
0.0
  0
LINE
  5
2CF
  8
CAVITY-SIDE
 10
-8.75
 20
-14.8
 30
0.0
 11
-8.75
 21
-4.08814
 31
0.0
  0
LINE
  5
2D0
  8
CAVITY-SIDE
 10
-9.525
 20
-3.31314
 30
0.0
 11
-9.58814
 21
-3.25
 31
0.0
  0
LINE
  5
2D1
  8
CAVITY-SIDE
 10
-9.525
 20
-3.31314
 30
0.0
 11
-8.75
 21
-4.08814
 31
0.0
  0
LINE
  5
2D2
  8
CAVITY-SIDE
 10
-16.0
 20
-0.5
 30
0.0
 11
-16.0
 21
0.0
 31
0.0
  0
LINE
  5
2D3
  8
CAVITY-SIDE
  6
GEN7
 62
     1
 10
0.0
 20
-37.270058
 30
0.0
 11
0.0
 21
3.621741
 31
0.0
  0
LINE
  5
2D4
  8
CAVITY-SIDE
 10
6.3625
 20
-29.5
 30
0.0
 11
6.3625
 21
-21.125
 31
0.0
  0
LINE
  5
2D5
  8
CAVITY-SIDE
 10
-6.3625
 20
-29.5
 30
0.0
 11
-6.3625
 21
-21.125
 31
0.0
  0
LINE
  5
2D6
  8
CAVITY-SIDE
  6
GEN7
 62
     1
 10
-6.3625
 20
-29.1
 30
0.0
 11
6.3625
 21
-29.1
 31
0.0
  0
LINE
  5
2D7
  8
CAVITY-SIDE
 10
-6.3625
 20
-29.5
 30
0.0
 11
6.3625
 21
-29.5
 31
0.0
  0
LINE
  5
2D8
  8
CAVITY-SIDE
 10
5.85
 20
-30.0125
 30
0.0
 11
-5.85
 21
-30.0125
 31
0.0
  0
LINE
  5
2D9
  8
CAVITY-SIDE
 10
-5.85
 20
-30.3
 30
0.0
 11
5.85
 21
-30.3
 31
0.0
  0
LINE
  5
2DA
  8
CAVITY-SIDE
 10
5.85
 20
-30.3
 30
0.0
 11
0.0
 21
-33.677499
 31
0.0
  0
LINE
  5
2DB
  8
CAVITY-SIDE
 10
0.0
 20
-33.677499
 30
0.0
 11
-5.85
 21
-30.3
 31
0.0
  0
LINE
  5
2DC
  8
CAVITY-SIDE
 10
-5.85
 20
-30.3
 30
0.0
 11
-5.85
 21
-30.0125
 31
0.0
  0
LINE
  5
2DF
  8
CAVITY-SIDE
 10
5.85
 20
-30.0125
 30
0.0
 11
5.85
 21
-30.3
 31
0.0
  0
LINE
  5
2E0
  8
CAVITY-SIDE
 10
10.325
 20
-0.5
 30
0.0
 11
9.58814
 21
-3.25
 31
0.0
  0
LINE
  5
2E1
  8
CAVITY-SIDE
 10
6.3625
 20
-21.125
 30
0.0
 11
-6.3625
 21
-21.125
 31
0.0
  0
LINE
  5
2E2
  8
CAVITY-SIDE
 10
-6.3625
 20
-21.125
 30
0.0
 11
-6.935753
 21
-19.55
 31
0.0
  0
LINE
  5
2E3
  8
CAVITY-SIDE
 10
6.3625
 20
-21.125
 30
0.0
 11
6.935753
 21
-19.55
 31
0.0
  0
LINE
  5
2E4
  8
CAVITY-SIDE
  6
GEN7
 62
     1
 10
-1.101268
 20
-14.7
 30
0.0
 11
1.231644
 21
-14.7
 31
0.0
  0
LINE
  5
2E5
  8
CAVITY-SIDE
 10
8.75
 20
-19.55
 30
0.0
 11
8.75
 21
-14.8
 31
0.0
  0
LINE
  5
2E6
  8
CAVITY-SIDE
 10
9.525
 20
-3.31314
 30
0.0
 11
9.525
 21
-14.8
 31
0.0
  0
LINE
  5
2E7
  8
CAVITY-SIDE
 10
8.75
 20
-4.08814
 30
0.0
 11
8.75
 21
-14.8
 31
0.0
  0
LINE
  5
2E8
  8
CAVITY-SIDE
 10
9.525
 20
-14.8
 30
0.0
 11
-9.525
 21
-14.8
 31
0.0
  0
LINE
  5
2E9
  8
CAVITY-SIDE
 10
9.58814
 20
-3.25
 30
0.0
 11
9.525
 21
-3.31314
 31
0.0
  0
LINE
  5
2EA
  8
CAVITY-SIDE
 10
8.75
 20
-4.08814
 30
0.0
 11
9.525
 21
-3.31314
 31
0.0
  0
LINE
  5
2EB
  8
CAVITY-SIDE
 10
16.0
 20
-0.5
 30
0.0
 11
-16.0
 21
-0.5
 31
0.0
  0
LINE
  5
2EC
  8
CAVITY-SIDE
 10
16.0
 20
0.0
 30
0.0
 11
16.0
 21
-0.5
 31
0.0
  0
LINE
  5
3B7
  8
CAVITY-SIDE
 10
-6.3625
 20
-29.5
 30
0.0
 11
-5.85
 21
-30.0125
 31
0.0
  0
LINE
  5
3B8
  8
CAVITY-SIDE
 10
5.85
 20
-30.0125
 30
0.0
 11
6.3625
 21
-29.5
 31
0.0
  0
ENDBLK
  5
2ED
  8
0
  0
BLOCK
  8
0
  2
CAV02-2CAVITYTOP
 70
     0
 10
0.0
 20
0.0
 30
0.0
  3
CAV02-2CAVITYTOP
  1

  0
LINE
  5
308
  8
CAVITY-TOP
  6
GEN7
 62
     1
 10
-22.4
 20
0.0
 30
0.0
 11
22.4
 21
0.0
 31
0.0
  0
CIRCLE
  5
309
  8
CAVITY-TOP
 10
0.0
 20
0.0
 30
0.0
 40
8.75
  0
ARC
  5
30A
  8
CAVITY-TOP
 10
0.0
 20
0.0
 30
0.0
 40
9.525
 50
156.561755
 51
0.0
  0
CIRCLE
  5
30B
  8
CAVITY-TOP
 10
0.0
 20
0.0
 30
0.0
 40
10.325
  0
CIRCLE
  5
30C
  8
CAVITY-TOP
 10
0.0
 20
0.0
 30
0.0
 40
16.0
  0
TEXT
  5
30D
  8
CAVITY-SIDE
 62
     1
 10
-4.5147
 20
1.390595
 30
0.0
 40
1.0
  1
02-2
  0
LINE
  5
30E
  8
CAVITY-TOP
  6
GEN7
 62
     1
 10
0.0
 20
-22.4
 30
0.0
 11
0.0
 21
22.4
 31
0.0
  0
CIRCLE
  5
30F
  8
CAVITY-TOP
 10
0.0
 20
0.0
 30
0.0
 40
5.85
  0
CIRCLE
  5
310
  8
CAVITY-TOP
 10
0.0
 20
0.0
 30
0.0
 40
6.35
  0
ARC
  5
311
  8
CAVITY-TOP
 10
0.0
 20
0.0
 30
0.0
 40
9.525
 50
0.0
 51
111.531085
  0
CIRCLE
  5
312
  8
CAVITY-TOP
 10
0.0
 20
0.0
 30
0.0
 40
6.923253
  0
ENDBLK
  5
313
  8
0
  0
BLOCK
  8
0
  2
DIMARROW
 70
     0
 10
0.0
 20
0.0
 30
0.0
  3
DIMARROW
  1

  0
LINE
  5
342
  8
0
 10
-1.0
 20
0.2
 30
0.0
 11
0.0
 21
0.0
 31
0.0
  0
LINE
  5
343
  8
0
 10
-1.0
 20
-0.2
 30
0.0
 11
-1.0
 21
0.2
 31
0.0
  0
LINE
  5
344
  8
0
 10
0.0
 20
0.0
 30
0.0
 11
-1.0
 21
-0.2
 31
0.0
  0
ENDBLK
  5
346
  8
0
  0
ENDSEC
  0
SECTION
  2
ENTITIES
  0
INSERT
  5
2EE
  8
0
  2
CAV02-2CAVITYSIDE
 10
0.0
 20
0.0
 30
0.0
  0
INSERT
  5
314
  8
0
  2
CAV02-2CAVITYTOP
 10
0.0
 20
49.260797
 30
0.0
  0
ENDSEC
  0
EOF
